ISO-10303-21;
HEADER;
FILE_DESCRIPTION (( 'STEP AP203' ),
    '1' );
FILE_NAME ('BK7-NPBSC-25.4-900-1200.STEP',
    '2020-12-22T02:11:35',
    ( '' ),
    ( '' ),
    'SwSTEP 2.0',
    'SolidWorks 2020',
    '' );
FILE_SCHEMA (( 'CONFIG_CONTROL_DESIGN' ));
ENDSEC;

DATA;
#1 = AXIS2_PLACEMENT_3D ( 'NONE', #273, #152, #301 ) ;
#2 = FACE_OUTER_BOUND ( 'NONE', #146, .T. ) ;
#3 = CARTESIAN_POINT ( 'NONE',  ( 12.69999999999999574, 12.69999999999999574, 12.69999999999999929 ) ) ;
#4 = CC_DESIGN_DATE_AND_TIME_ASSIGNMENT ( #100, #287, ( #145 ) ) ;
#5 = DIRECTION ( 'NONE',  ( -0.000000000000000000, -0.000000000000000000, -1.000000000000000000 ) ) ;
#6 = LINE ( 'NONE', #61, #39 ) ;
#7 = ADVANCED_FACE ( 'NONE', ( #169 ), #189, .F. ) ;
#8 = CARTESIAN_POINT ( 'NONE',  ( 12.69999999999999929, 12.69999999999999929, -12.69999999999999929 ) ) ;
#9 = DIRECTION ( 'NONE',  ( -0.000000000000000000, -0.000000000000000000, -1.000000000000000000 ) ) ;
#10 = ORIENTED_EDGE ( 'NONE', *, *, #315, .T. ) ;
#11 = DIRECTION ( 'NONE',  ( -0.000000000000000000, 1.000000000000000000, -0.000000000000000000 ) ) ;
#12 = PERSON_AND_ORGANIZATION ( #289, #177 ) ;
#13 = EDGE_CURVE ( 'NONE', #237, #90, #147, .T. ) ;
#14 = ORIENTED_EDGE ( 'NONE', *, *, #240, .F. ) ;
#15 = PERSON_AND_ORGANIZATION ( #289, #177 ) ;
#16 = ORIENTED_EDGE ( 'NONE', *, *, #268, .F. ) ;
#17 = PERSON_AND_ORGANIZATION_ROLE ( 'creator' ) ;
#18 = CLOSED_SHELL ( 'NONE', ( #126, #136, #281, #51, #30 ) ) ;
#19 = VECTOR ( 'NONE', #91, 1000.000000000000114 ) ;
#20 = ORIENTED_EDGE ( 'NONE', *, *, #95, .F. ) ;
#21 = EDGE_CURVE ( 'NONE', #162, #161, #319, .T. ) ;
#22 = APPROVAL_STATUS ( 'not_yet_approved' ) ;
#23 = CARTESIAN_POINT ( 'NONE',  ( 12.69999999999999574, 12.69999999999999574, 12.69999999999999929 ) ) ;
#24 = CALENDAR_DATE ( 2020, 22, 12 ) ;
#25 = DIRECTION ( 'NONE',  ( -0.7071067811865475727, -0.7071067811865475727, 0.000000000000000000 ) ) ;
#26 = DIRECTION ( 'NONE',  ( 1.000000000000000000, 0.000000000000000000, 0.000000000000000000 ) ) ;
#27 = PLANE ( 'NONE',  #182 ) ;
#28 = CARTESIAN_POINT ( 'NONE',  ( 12.69999999999999929, 12.69999999999999929, 12.69999999999999929 ) ) ;
#29 = LINE ( 'NONE', #108, #223 ) ;
#30 = ADVANCED_FACE ( 'NONE', ( #2 ), #106, .F. ) ;
#31 = DIRECTION ( 'NONE',  ( -0.7071067811865474617, -0.7071067811865474617, 0.000000000000000000 ) ) ;
#32 = APPROVAL ( #124, 'UNSPECIFIED' ) ;
#33 = VECTOR ( 'NONE', #125, 1000.000000000000000 ) ;
#34 = LOCAL_TIME ( 10, 11, 35.00000000000000000, #148 ) ;
#35 = EDGE_CURVE ( 'NONE', #161, #286, #153, .T. ) ;
#36 = CARTESIAN_POINT ( 'NONE',  ( -12.69999999999999574, -12.69999999999999396, -12.69999999999999929 ) ) ;
#37 = ORIENTED_EDGE ( 'NONE', *, *, #305, .T. ) ;
#38 = ORIENTED_EDGE ( 'NONE', *, *, #303, .F. ) ;
#39 = VECTOR ( 'NONE', #31, 1000.000000000000114 ) ;
#40 = CALENDAR_DATE ( 2020, 22, 12 ) ;
#41 = VERTEX_POINT ( 'NONE', #198 ) ;
#42 = COORDINATED_UNIVERSAL_TIME_OFFSET ( 8, 0, .AHEAD. ) ;
#43 = ORIENTED_EDGE ( 'NONE', *, *, #35, .T. ) ;
#44 = CALENDAR_DATE ( 2020, 22, 12 ) ;
#45 = DATE_AND_TIME ( #127, #34 ) ;
#46 = AXIS2_PLACEMENT_3D ( 'NONE', #165, #213, #275 ) ;
#47 = CARTESIAN_POINT ( 'NONE',  ( 12.69999999999999929, 12.69999999999999929, -12.69999999999999929 ) ) ;
#48 = CARTESIAN_POINT ( 'NONE',  ( -12.69999999999999574, -12.69999999999999396, 12.69999999999999929 ) ) ;
#49 = FACE_OUTER_BOUND ( 'NONE', #215, .T. ) ;
#50 = MANIFOLD_SOLID_BREP ( '¾µÏ', #96 ) ;
#51 = ADVANCED_FACE ( 'NONE', ( #249 ), #244, .T. ) ;
#52 = CARTESIAN_POINT ( 'NONE',  ( 0.000000000000000000, 0.000000000000000000, 12.69999999999999929 ) ) ;
#53 = DIRECTION ( 'NONE',  ( -0.000000000000000000, 0.000000000000000000, 1.000000000000000000 ) ) ;
#54 = LINE ( 'NONE', #277, #129 ) ;
#55 = CARTESIAN_POINT ( 'NONE',  ( -12.69999999999999751, -12.69999999999999929, 12.69999999999999929 ) ) ;
#56 = VECTOR ( 'NONE', #295, 1000.000000000000000 ) ;
#57 = APPROVAL_PERSON_ORGANIZATION ( #121, #176, #67 ) ;
#58 = VERTEX_POINT ( 'NONE', #225 ) ;
#59 = CC_DESIGN_PERSON_AND_ORGANIZATION_ASSIGNMENT ( #190, #17, ( #145 ) ) ;
#60 = CC_DESIGN_APPROVAL ( #32, ( #307 ) ) ;
#61 = CARTESIAN_POINT ( 'NONE',  ( 12.69999999999999929, 12.69999999999999929, 12.69999999999999929 ) ) ;
#62 = ORIENTED_EDGE ( 'NONE', *, *, #101, .F. ) ;
#63 = EDGE_CURVE ( 'NONE', #41, #58, #320, .T. ) ;
#64 = EDGE_LOOP ( 'NONE', ( #37, #308, #156, #115 ) ) ;
#65 = CARTESIAN_POINT ( 'NONE',  ( 12.69999999999999574, 12.69999999999999574, 12.69999999999999929 ) ) ;
#66 = ORIENTED_EDGE ( 'NONE', *, *, #13, .T. ) ;
#67 = APPROVAL_ROLE ( '' ) ;
#68 = EDGE_LOOP ( 'NONE', ( #86, #241, #184, #291 ) ) ;
#69 = PERSON_AND_ORGANIZATION ( #289, #177 ) ;
#70 = DIRECTION ( 'NONE',  ( -2.220446049250312588E-16, 1.000000000000000000, 0.000000000000000000 ) ) ;
#71 = APPROVAL_ROLE ( '' ) ;
#72 = AXIS2_PLACEMENT_3D ( 'NONE', #194, #130, #75 ) ;
#73 = PLANE ( 'NONE',  #279 ) ;
#74 = APPROVAL_DATE_TIME ( #45, #176 ) ;
#75 = DIRECTION ( 'NONE',  ( 1.000000000000000000, 0.000000000000000000, 0.000000000000000000 ) ) ;
#76 = ADVANCED_FACE ( 'NONE', ( #102 ), #199, .F. ) ;
#77 = FACE_OUTER_BOUND ( 'NONE', #68, .T. ) ;
#78 = AXIS2_PLACEMENT_3D ( 'NONE', #52, #196, #293 ) ;
#79 = CARTESIAN_POINT ( 'NONE',  ( 12.69999999999999574, 12.69999999999999574, 12.69999999999999929 ) ) ;
#80 = CC_DESIGN_APPROVAL ( #264, ( #302 ) ) ;
#81 = CARTESIAN_POINT ( 'NONE',  ( 12.69999999999999929, -12.69999999999999929, 12.69999999999999929 ) ) ;
#82 = LINE ( 'NONE', #132, #122 ) ;
#83 = ADVANCED_FACE ( 'NONE', ( #49 ), #224, .T. ) ;
#84 = LOCAL_TIME ( 10, 11, 35.00000000000000000, #258 ) ;
#85 = CC_DESIGN_PERSON_AND_ORGANIZATION_ASSIGNMENT ( #266, #195, ( #166 ) ) ;
#86 = ORIENTED_EDGE ( 'NONE', *, *, #180, .F. ) ;
#87 = VERTEX_POINT ( 'NONE', #47 ) ;
#88 = AXIS2_PLACEMENT_3D ( 'NONE', #105, #53, #26 ) ;
#89 = CARTESIAN_POINT ( 'NONE',  ( 12.69999999999999929, 12.69999999999999929, 12.69999999999999929 ) ) ;
#90 = VERTEX_POINT ( 'NONE', #298 ) ;
#91 = DIRECTION ( 'NONE',  ( -0.7071067811865474617, -0.7071067811865474617, 0.000000000000000000 ) ) ;
#92 = CC_DESIGN_PERSON_AND_ORGANIZATION_ASSIGNMENT ( #15, #212, ( #302 ) ) ;
#93 = ORIENTED_EDGE ( 'NONE', *, *, #21, .T. ) ;
#94 = APPLICATION_PROTOCOL_DEFINITION ( 'international standard', 'config_control_design', 1994, #228 ) ;
#95 = EDGE_CURVE ( 'NONE', #90, #235, #123, .T. ) ;
#96 = CLOSED_SHELL ( 'NONE', ( #111, #119, #76, #83, #7 ) ) ;
#97 = ORIENTED_EDGE ( 'NONE', *, *, #63, .F. ) ;
#98 = PERSON_AND_ORGANIZATION ( #289, #177 ) ;
#99 = DIRECTION ( 'NONE',  ( 1.000000000000000000, 0.000000000000000000, 0.000000000000000000 ) ) ;
#100 = DATE_AND_TIME ( #44, #216 ) ;
#101 = EDGE_CURVE ( 'NONE', #237, #41, #299, .T. ) ;
#102 = FACE_OUTER_BOUND ( 'NONE', #120, .T. ) ;
#103 = DIRECTION ( 'NONE',  ( 0.000000000000000000, 0.000000000000000000, 1.000000000000000000 ) ) ;
#104 = LOCAL_TIME ( 10, 11, 35.00000000000000000, #193 ) ;
#105 = CARTESIAN_POINT ( 'NONE',  ( 0.000000000000000000, 0.000000000000000000, -12.69999999999999929 ) ) ;
#106 = PLANE ( 'NONE',  #88 ) ;
#107 = PLANE ( 'NONE',  #141 ) ;
#108 = CARTESIAN_POINT ( 'NONE',  ( -12.69999999999999574, -12.69999999999999396, 12.69999999999999929 ) ) ;
#109 = DIRECTION ( 'NONE',  ( -2.220446049250312588E-16, 1.000000000000000000, 0.000000000000000000 ) ) ;
#110 = LINE ( 'NONE', #204, #296 ) ;
#111 = ADVANCED_FACE ( 'NONE', ( #171 ), #73, .F. ) ;
#112 = DIRECTION ( 'NONE',  ( 0.000000000000000000, 0.000000000000000000, -1.000000000000000000 ) ) ;
#113 = EDGE_LOOP ( 'NONE', ( #211, #38, #256, #10 ) ) ;
#114 =( NAMED_UNIT ( * ) PLANE_ANGLE_UNIT ( ) SI_UNIT ( $, .RADIAN. ) );
#115 = ORIENTED_EDGE ( 'NONE', *, *, #240, .T. ) ;
#116 = CARTESIAN_POINT ( 'NONE',  ( 0.000000000000000000, 0.000000000000000000, 0.000000000000000000 ) ) ;
#117 = APPLICATION_CONTEXT ( 'configuration controlled 3d designs of mechanical parts and assemblies' ) ;
#118 = ORIENTED_EDGE ( 'NONE', *, *, #206, .F. ) ;
#119 = ADVANCED_FACE ( 'NONE', ( #77 ), #107, .F. ) ;
#120 = EDGE_LOOP ( 'NONE', ( #16, #311, #232, #309 ) ) ;
#121 = PERSON_AND_ORGANIZATION ( #289, #177 ) ;
#122 = VECTOR ( 'NONE', #9, 1000.000000000000000 ) ;
#123 = LINE ( 'NONE', #48, #253 ) ;
#124 = APPROVAL_STATUS ( 'not_yet_approved' ) ;
#125 = DIRECTION ( 'NONE',  ( -0.000000000000000000, 1.000000000000000000, -0.000000000000000000 ) ) ;
#126 = ADVANCED_FACE ( 'NONE', ( #128 ), #222, .F. ) ;
#127 = CALENDAR_DATE ( 2020, 22, 12 ) ;
#128 = FACE_OUTER_BOUND ( 'NONE', #64, .T. ) ;
#129 = VECTOR ( 'NONE', #11, 1000.000000000000000 ) ;
#130 = DIRECTION ( 'NONE',  ( -0.000000000000000000, 0.000000000000000000, 1.000000000000000000 ) ) ;
#131 = CARTESIAN_POINT ( 'NONE',  ( -12.69999999999999751, -12.69999999999999929, 12.69999999999999929 ) ) ;
#132 = CARTESIAN_POINT ( 'NONE',  ( 12.69999999999999929, -12.69999999999999929, 12.69999999999999929 ) ) ;
#133 = VECTOR ( 'NONE', #218, 999.9999999999998863 ) ;
#134 = DIRECTION ( 'NONE',  ( 1.000000000000000000, -2.220446049250312588E-16, 0.000000000000000000 ) ) ;
#135 = LOCAL_TIME ( 10, 11, 35.00000000000000000, #243 ) ;
#136 = ADVANCED_FACE ( 'NONE', ( #200 ), #27, .F. ) ;
#137 = VECTOR ( 'NONE', #5, 1000.000000000000000 ) ;
#138 = CARTESIAN_POINT ( 'NONE',  ( -12.70000000000000284, 12.70000000000000284, -12.69999999999999929 ) ) ;
#139 = ORIENTED_EDGE ( 'NONE', *, *, #247, .F. ) ;
#140 = EDGE_LOOP ( 'NONE', ( #257, #14, #265, #192 ) ) ;
#141 = AXIS2_PLACEMENT_3D ( 'NONE', #175, #151, #246 ) ;
#142 = EDGE_CURVE ( 'NONE', #286, #162, #6, .T. ) ;
#143 = EDGE_LOOP ( 'NONE', ( #97, #62, #66, #316 ) ) ;
#144 = APPROVAL_DATE_TIME ( #238, #264 ) ;
#145 = PRODUCT_DEFINITION ( 'UNKNOWN', '', #302, #261 ) ;
#146 = EDGE_LOOP ( 'NONE', ( #262, #205, #118 ) ) ;
#147 = LINE ( 'NONE', #79, #133 ) ;
#148 = COORDINATED_UNIVERSAL_TIME_OFFSET ( 8, 0, .AHEAD. ) ;
#149 = DIRECTION ( 'NONE',  ( 0.7071067811865475727, 0.7071067811865475727, 0.000000000000000000 ) ) ;
#150 = CC_DESIGN_PERSON_AND_ORGANIZATION_ASSIGNMENT ( #217, #318, ( #307 ) ) ;
#151 = DIRECTION ( 'NONE',  ( 1.000000000000000000, -2.220446049250312588E-16, 0.000000000000000000 ) ) ;
#152 = DIRECTION ( 'NONE',  ( 0.7071067811865475727, -0.7071067811865475727, 0.000000000000000000 ) ) ;
#153 = LINE ( 'NONE', #269, #33 ) ;
#154 = CARTESIAN_POINT ( 'NONE',  ( -12.69999999999999751, -12.69999999999999929, -12.69999999999999929 ) ) ;
#155 = FACE_OUTER_BOUND ( 'NONE', #140, .T. ) ;
#156 = ORIENTED_EDGE ( 'NONE', *, *, #142, .F. ) ;
#157 = MANIFOLD_SOLID_BREP ( 'Í¹Ì¨-À', #18 ) ;
#158 = VECTOR ( 'NONE', #226, 1000.000000000000000 ) ;
#159 = LINE ( 'NONE', #36, #306 ) ;
#160 = PRODUCT_RELATED_PRODUCT_CATEGORY ( 'detail', '', ( #166 ) ) ;
#161 = VERTEX_POINT ( 'NONE', #81 ) ;
#162 = VERTEX_POINT ( 'NONE', #55 ) ;
#163 = UNCERTAINTY_MEASURE_WITH_UNIT (LENGTH_MEASURE( 1.000000000000000082E-05 ), #183, 'distance_accuracy_value', 'NONE');
#164 = DIRECTION ( 'NONE',  ( 0.000000000000000000, 0.000000000000000000, 1.000000000000000000 ) ) ;
#165 = CARTESIAN_POINT ( 'NONE',  ( 0.000000000000000000, 0.000000000000000000, -12.69999999999999929 ) ) ;
#166 = PRODUCT ( 'BK7-NPBSC-25.4-900-1200', 'BK7-NPBSC-25.4-900-1200', '', ( #197 ) ) ;
#167 = ORIENTED_EDGE ( 'NONE', *, *, #180, .T. ) ;
#168 = CALENDAR_DATE ( 2020, 22, 12 ) ;
#169 = FACE_OUTER_BOUND ( 'NONE', #260, .T. ) ;
#170 = EDGE_CURVE ( 'NONE', #90, #58, #29, .T. ) ;
#171 = FACE_OUTER_BOUND ( 'NONE', #143, .T. ) ;
#172 = AXIS2_PLACEMENT_3D ( 'NONE', #280, #186, #164 ) ;
#173 = DIRECTION ( 'NONE',  ( 0.000000000000000000, 0.000000000000000000, 1.000000000000000000 ) ) ;
#174 = CARTESIAN_POINT ( 'NONE',  ( 12.69999999999999574, 12.69999999999999574, 12.69999999999999929 ) ) ;
#175 = CARTESIAN_POINT ( 'NONE',  ( -12.69999999999999574, -12.69999999999999396, 12.69999999999999929 ) ) ;
#176 = APPROVAL ( #22, 'UNSPECIFIED' ) ;
#177 = ORGANIZATION ( 'UNSPECIFIED', 'UNSPECIFIED', '' ) ;
#178 = DIRECTION ( 'NONE',  ( 0.000000000000000000, 1.000000000000000000, 0.000000000000000000 ) ) ;
#179 =( NAMED_UNIT ( * ) SI_UNIT ( $, .STERADIAN. ) SOLID_ANGLE_UNIT ( ) );
#180 = EDGE_CURVE ( 'NONE', #58, #288, #159, .T. ) ;
#181 = CARTESIAN_POINT ( 'NONE',  ( 12.69999999999999574, 12.69999999999999574, 12.69999999999999929 ) ) ;
#182 = AXIS2_PLACEMENT_3D ( 'NONE', #131, #178, #188 ) ;
#183 =( LENGTH_UNIT ( ) NAMED_UNIT ( * ) SI_UNIT ( .MILLI., .METRE. ) );
#184 = ORIENTED_EDGE ( 'NONE', *, *, #95, .T. ) ;
#185 = VECTOR ( 'NONE', #134, 1000.000000000000000 ) ;
#186 = DIRECTION ( 'NONE',  ( -1.000000000000000000, 0.000000000000000000, 0.000000000000000000 ) ) ;
#187 = ORIENTED_EDGE ( 'NONE', *, *, #268, .T. ) ;
#188 = DIRECTION ( 'NONE',  ( 0.000000000000000000, -0.000000000000000000, 1.000000000000000000 ) ) ;
#189 = PLANE ( 'NONE',  #46 ) ;
#190 = PERSON_AND_ORGANIZATION ( #289, #177 ) ;
#191 = VERTEX_POINT ( 'NONE', #202 ) ;
#192 = ORIENTED_EDGE ( 'NONE', *, *, #303, .T. ) ;
#193 = COORDINATED_UNIVERSAL_TIME_OFFSET ( 8, 0, .AHEAD. ) ;
#194 = CARTESIAN_POINT ( 'NONE',  ( 0.000000000000000000, 0.000000000000000000, 12.69999999999999929 ) ) ;
#195 = PERSON_AND_ORGANIZATION_ROLE ( 'design_owner' ) ;
#196 = DIRECTION ( 'NONE',  ( 0.000000000000000000, 0.000000000000000000, 1.000000000000000000 ) ) ;
#197 = MECHANICAL_CONTEXT ( 'NONE', #228, 'mechanical' ) ;
#198 = CARTESIAN_POINT ( 'NONE',  ( 12.69999999999999574, 12.69999999999999574, -12.69999999999999929 ) ) ;
#199 = PLANE ( 'NONE',  #251 ) ;
#200 = FACE_OUTER_BOUND ( 'NONE', #113, .T. ) ;
#201 = CC_DESIGN_APPROVAL ( #176, ( #145 ) ) ;
#202 = CARTESIAN_POINT ( 'NONE',  ( 12.69999999999999929, -12.69999999999999929, -12.69999999999999929 ) ) ;
#203 = CC_DESIGN_PERSON_AND_ORGANIZATION_ASSIGNMENT ( #12, #292, ( #302 ) ) ;
#204 = CARTESIAN_POINT ( 'NONE',  ( -12.69999999999999751, -12.69999999999999929, 12.69999999999999929 ) ) ;
#205 = ORIENTED_EDGE ( 'NONE', *, *, #231, .F. ) ;
#206 = EDGE_CURVE ( 'NONE', #208, #191, #252, .T. ) ;
#207 = DIRECTION ( 'NONE',  ( 0.000000000000000000, 0.000000000000000000, -1.000000000000000000 ) ) ;
#208 = VERTEX_POINT ( 'NONE', #229 ) ;
#209 = VECTOR ( 'NONE', #112, 1000.000000000000000 ) ;
#210 = LINE ( 'NONE', #65, #185 ) ;
#211 = ORIENTED_EDGE ( 'NONE', *, *, #206, .T. ) ;
#212 = PERSON_AND_ORGANIZATION_ROLE ( 'design_supplier' ) ;
#213 = DIRECTION ( 'NONE',  ( 0.000000000000000000, 0.000000000000000000, 1.000000000000000000 ) ) ;
#214 = SHAPE_DEFINITION_REPRESENTATION ( #321, #300 ) ;
#215 = EDGE_LOOP ( 'NONE', ( #284, #139, #20 ) ) ;
#216 = LOCAL_TIME ( 10, 11, 35.00000000000000000, #42 ) ;
#217 = PERSON_AND_ORGANIZATION ( #289, #177 ) ;
#218 = DIRECTION ( 'NONE',  ( -0.7071067811865475727, -0.7071067811865475727, 0.000000000000000000 ) ) ;
#219 = DATE_AND_TIME ( #40, #84 ) ;
#220 = DIRECTION ( 'NONE',  ( 2.220446049250312588E-16, -1.000000000000000000, 0.000000000000000000 ) ) ;
#221 = APPLICATION_PROTOCOL_DEFINITION ( 'international standard', 'config_control_design', 1994, #117 ) ;
#222 = PLANE ( 'NONE',  #1 ) ;
#223 = VECTOR ( 'NONE', #207, 1000.000000000000000 ) ;
#224 = PLANE ( 'NONE',  #78 ) ;
#225 = CARTESIAN_POINT ( 'NONE',  ( -12.69999999999999574, -12.69999999999999396, -12.69999999999999929 ) ) ;
#226 = DIRECTION ( 'NONE',  ( 1.000000000000000000, -2.220446049250312588E-16, 0.000000000000000000 ) ) ;
#227 = VECTOR ( 'NONE', #99, 1000.000000000000000 ) ;
#228 = APPLICATION_CONTEXT ( 'configuration controlled 3d designs of mechanical parts and assemblies' ) ;
#229 = CARTESIAN_POINT ( 'NONE',  ( -12.69999999999999751, -12.69999999999999929, -12.69999999999999929 ) ) ;
#230 = CARTESIAN_POINT ( 'NONE',  ( 12.69999999999999574, 12.69999999999999574, -12.69999999999999929 ) ) ;
#231 = EDGE_CURVE ( 'NONE', #191, #87, #54, .T. ) ;
#232 = ORIENTED_EDGE ( 'NONE', *, *, #247, .T. ) ;
#233 = EDGE_CURVE ( 'NONE', #235, #288, #250, .T. ) ;
#234 = LINE ( 'NONE', #230, #158 ) ;
#235 = VERTEX_POINT ( 'NONE', #278 ) ;
#236 = APPROVAL_ROLE ( '' ) ;
#237 = VERTEX_POINT ( 'NONE', #181 ) ;
#238 = DATE_AND_TIME ( #168, #135 ) ;
#239 = ORIENTED_EDGE ( 'NONE', *, *, #63, .T. ) ;
#240 = EDGE_CURVE ( 'NONE', #286, #87, #304, .T. ) ;
#241 = ORIENTED_EDGE ( 'NONE', *, *, #170, .F. ) ;
#242 = CC_DESIGN_SECURITY_CLASSIFICATION ( #307, ( #302 ) ) ;
#243 = COORDINATED_UNIVERSAL_TIME_OFFSET ( 8, 0, .AHEAD. ) ;
#244 = PLANE ( 'NONE',  #72 ) ;
#245 = DATE_TIME_ROLE ( 'classification_date' ) ;
#246 = DIRECTION ( 'NONE',  ( 0.000000000000000000, 0.000000000000000000, 1.000000000000000000 ) ) ;
#247 = EDGE_CURVE ( 'NONE', #235, #237, #210, .T. ) ;
#248 = CARTESIAN_POINT ( 'NONE',  ( 12.69999999999999574, 12.69999999999999574, -12.69999999999999929 ) ) ;
#249 = FACE_OUTER_BOUND ( 'NONE', #317, .T. ) ;
#250 = LINE ( 'NONE', #255, #209 ) ;
#251 = AXIS2_PLACEMENT_3D ( 'NONE', #3, #220, #173 ) ;
#252 = LINE ( 'NONE', #154, #259 ) ;
#253 = VECTOR ( 'NONE', #70, 1000.000000000000000 ) ;
#254 =( GEOMETRIC_REPRESENTATION_CONTEXT ( 3 ) GLOBAL_UNCERTAINTY_ASSIGNED_CONTEXT ( ( #163 ) ) GLOBAL_UNIT_ASSIGNED_CONTEXT ( ( #183, #114, #179 ) ) REPRESENTATION_CONTEXT ( 'NONE', 'WORKASPACE' ) );
#255 = CARTESIAN_POINT ( 'NONE',  ( -12.70000000000000284, 12.70000000000000284, 12.69999999999999929 ) ) ;
#256 = ORIENTED_EDGE ( 'NONE', *, *, #21, .F. ) ;
#257 = ORIENTED_EDGE ( 'NONE', *, *, #231, .T. ) ;
#258 = COORDINATED_UNIVERSAL_TIME_OFFSET ( 8, 0, .AHEAD. ) ;
#259 = VECTOR ( 'NONE', #285, 1000.000000000000000 ) ;
#260 = EDGE_LOOP ( 'NONE', ( #239, #167, #187 ) ) ;
#261 = DESIGN_CONTEXT ( 'detailed design', #117, 'design' ) ;
#262 = ORIENTED_EDGE ( 'NONE', *, *, #305, .F. ) ;
#263 = APPROVAL_DATE_TIME ( #219, #32 ) ;
#264 = APPROVAL ( #314, 'UNSPECIFIED' ) ;
#265 = ORIENTED_EDGE ( 'NONE', *, *, #35, .F. ) ;
#266 = PERSON_AND_ORGANIZATION ( #289, #177 ) ;
#267 = VECTOR ( 'NONE', #25, 999.9999999999998863 ) ;
#268 = EDGE_CURVE ( 'NONE', #288, #41, #234, .T. ) ;
#269 = CARTESIAN_POINT ( 'NONE',  ( 12.69999999999999929, 12.69999999999999929, 12.69999999999999929 ) ) ;
#270 = APPROVAL_PERSON_ORGANIZATION ( #69, #32, #71 ) ;
#271 = DIRECTION ( 'NONE',  ( -0.7071067811865475727, 0.7071067811865475727, 0.000000000000000000 ) ) ;
#272 = CARTESIAN_POINT ( 'NONE',  ( -12.69999999999999751, -12.69999999999999929, 12.69999999999999929 ) ) ;
#273 = CARTESIAN_POINT ( 'NONE',  ( 12.69999999999999929, 12.69999999999999929, 12.69999999999999929 ) ) ;
#274 = AXIS2_PLACEMENT_3D ( 'NONE', #116, #103, #297 ) ;
#275 = DIRECTION ( 'NONE',  ( -2.220446049250312588E-16, 1.000000000000000000, 0.000000000000000000 ) ) ;
#276 = CC_DESIGN_DATE_AND_TIME_ASSIGNMENT ( #290, #245, ( #307 ) ) ;
#277 = CARTESIAN_POINT ( 'NONE',  ( 12.69999999999999929, 12.69999999999999929, -12.69999999999999929 ) ) ;
#278 = CARTESIAN_POINT ( 'NONE',  ( -12.70000000000000284, 12.70000000000000284, 12.69999999999999929 ) ) ;
#279 = AXIS2_PLACEMENT_3D ( 'NONE', #174, #271, #149 ) ;
#280 = CARTESIAN_POINT ( 'NONE',  ( 12.69999999999999929, 12.69999999999999929, 12.69999999999999929 ) ) ;
#281 = ADVANCED_FACE ( 'NONE', ( #155 ), #312, .F. ) ;
#282 = APPROVAL_PERSON_ORGANIZATION ( #98, #264, #236 ) ;
#283 = DIRECTION ( 'NONE',  ( -0.000000000000000000, -0.000000000000000000, -1.000000000000000000 ) ) ;
#284 = ORIENTED_EDGE ( 'NONE', *, *, #13, .F. ) ;
#285 = DIRECTION ( 'NONE',  ( 1.000000000000000000, 0.000000000000000000, 0.000000000000000000 ) ) ;
#286 = VERTEX_POINT ( 'NONE', #28 ) ;
#287 = DATE_TIME_ROLE ( 'creation_date' ) ;
#288 = VERTEX_POINT ( 'NONE', #138 ) ;
#289 = PERSON ( 'UNSPECIFIED', 'UNSPECIFIED', 'UNSPECIFIED', ('UNSPECIFIED'), ('UNSPECIFIED'), ('UNSPECIFIED') ) ;
#290 = DATE_AND_TIME ( #24, #104 ) ;
#291 = ORIENTED_EDGE ( 'NONE', *, *, #233, .T. ) ;
#292 = PERSON_AND_ORGANIZATION_ROLE ( 'creator' ) ;
#293 = DIRECTION ( 'NONE',  ( -2.220446049250312588E-16, 1.000000000000000000, 0.000000000000000000 ) ) ;
#294 = SECURITY_CLASSIFICATION_LEVEL ( 'unclassified' ) ;
#295 = DIRECTION ( 'NONE',  ( 0.000000000000000000, 0.000000000000000000, -1.000000000000000000 ) ) ;
#296 = VECTOR ( 'NONE', #283, 1000.000000000000000 ) ;
#297 = DIRECTION ( 'NONE',  ( 1.000000000000000000, 0.000000000000000000, 0.000000000000000000 ) ) ;
#298 = CARTESIAN_POINT ( 'NONE',  ( -12.69999999999999574, -12.69999999999999396, 12.69999999999999929 ) ) ;
#299 = LINE ( 'NONE', #23, #56 ) ;
#300 = ADVANCED_BREP_SHAPE_REPRESENTATION ( 'BK7-NPBSC-25.4-900-1200', ( #157, #50, #274 ), #254 ) ;
#301 = DIRECTION ( 'NONE',  ( 0.7071067811865474617, 0.7071067811865474617, 0.000000000000000000 ) ) ;
#302 = PRODUCT_DEFINITION_FORMATION_WITH_SPECIFIED_SOURCE ( 'ANY', '', #166, .NOT_KNOWN. ) ;
#303 = EDGE_CURVE ( 'NONE', #161, #191, #82, .T. ) ;
#304 = LINE ( 'NONE', #89, #137 ) ;
#305 = EDGE_CURVE ( 'NONE', #87, #208, #310, .T. ) ;
#306 = VECTOR ( 'NONE', #109, 1000.000000000000000 ) ;
#307 = SECURITY_CLASSIFICATION ( '', '', #294 ) ;
#308 = ORIENTED_EDGE ( 'NONE', *, *, #315, .F. ) ;
#309 = ORIENTED_EDGE ( 'NONE', *, *, #101, .T. ) ;
#310 = LINE ( 'NONE', #8, #19 ) ;
#311 = ORIENTED_EDGE ( 'NONE', *, *, #233, .F. ) ;
#312 = PLANE ( 'NONE',  #172 ) ;
#313 = ORIENTED_EDGE ( 'NONE', *, *, #142, .T. ) ;
#314 = APPROVAL_STATUS ( 'not_yet_approved' ) ;
#315 = EDGE_CURVE ( 'NONE', #162, #208, #110, .T. ) ;
#316 = ORIENTED_EDGE ( 'NONE', *, *, #170, .T. ) ;
#317 = EDGE_LOOP ( 'NONE', ( #313, #93, #43 ) ) ;
#318 = PERSON_AND_ORGANIZATION_ROLE ( 'classification_officer' ) ;
#319 = LINE ( 'NONE', #272, #227 ) ;
#320 = LINE ( 'NONE', #248, #267 ) ;
#321 = PRODUCT_DEFINITION_SHAPE ( 'NONE', 'NONE',  #145 ) ;
ENDSEC;
END-ISO-10303-21;
